ISO-10303-21;
HEADER;
FILE_DESCRIPTION (( 'STEP AP203' ),
    '1' );
FILE_NAME ('Q-QZWP-R4-10-355-M.STEP',
    '2020-12-23T01:21:47',
    ( '' ),
    ( '' ),
    'SwSTEP 2.0',
    'SolidWorks 2020',
    '' );
FILE_SCHEMA (( 'CONFIG_CONTROL_DESIGN' ));
ENDSEC;

DATA;
#1 = ORIENTED_EDGE ( 'NONE', *, *, #314, .T. ) ;
#2 = ORIENTED_EDGE ( 'NONE', *, *, #289, .T. ) ;
#3 = EDGE_CURVE ( 'NONE', #149, #51, #334, .T. ) ;
#4 = VERTEX_POINT ( 'NONE', #293 ) ;
#5 = AXIS2_PLACEMENT_3D ( 'NONE', #304, #168, #328 ) ;
#6 = CARTESIAN_POINT ( 'NONE',  ( -1.250000000000000222, 0.000000000000000000, 0.000000000000000000 ) ) ;
#7 = ORIENTED_EDGE ( 'NONE', *, *, #3, .T. ) ;
#8 = FACE_OUTER_BOUND ( 'NONE', #155, .T. ) ;
#9 = ORIENTED_EDGE ( 'NONE', *, *, #39, .T. ) ;
#10 = PERSON_AND_ORGANIZATION_ROLE ( 'classification_officer' ) ;
#11 = DATE_AND_TIME ( #242, #206 ) ;
#12 = PERSON_AND_ORGANIZATION_ROLE ( 'creator' ) ;
#13 = AXIS2_PLACEMENT_3D ( 'NONE', #42, #255, #90 ) ;
#14 = FACE_BOUND ( 'NONE', #204, .T. ) ;
#15 = DIRECTION ( 'NONE',  ( -0.000000000000000000, 0.000000000000000000, 1.000000000000000000 ) ) ;
#16 = ADVANCED_FACE ( 'NONE', ( #40 ), #226, .T. ) ;
#17 = CARTESIAN_POINT ( 'NONE',  ( -1.614212418857619014, 0.000000000000000000, 5.000000000000000888 ) ) ;
#18 = CARTESIAN_POINT ( 'NONE',  ( 3.000000000000000000, 0.000000000000000000, 5.000000000000001776 ) ) ;
#19 = DIRECTION ( 'NONE',  ( 0.000000000000000000, 0.000000000000000000, 1.000000000000000000 ) ) ;
#20 = DIRECTION ( 'NONE',  ( -1.000000000000000000, -0.000000000000000000, -0.000000000000000000 ) ) ;
#21 = LOCAL_TIME ( 9, 21, 47.00000000000000000, #273 ) ;
#22 = LINE ( 'NONE', #173, #113 ) ;
#23 = APPROVAL ( #37, 'UNSPECIFIED' ) ;
#24 = ORIENTED_EDGE ( 'NONE', *, *, #220, .T. ) ;
#25 = VERTEX_POINT ( 'NONE', #303 ) ;
#26 = APPROVAL ( #214, 'UNSPECIFIED' ) ;
#27 = CYLINDRICAL_SURFACE ( 'NONE', #197, 5.000000000000000888 ) ;
#28 = AXIS2_PLACEMENT_3D ( 'NONE', #329, #278, #283 ) ;
#29 = EDGE_LOOP ( 'NONE', ( #133, #77, #24, #265 ) ) ;
#30 = CIRCLE ( 'NONE', #5, 5.000000000000000000 ) ;
#31 = CARTESIAN_POINT ( 'NONE',  ( -3.000000000000000000, 0.000000000000000000, 0.000000000000000000 ) ) ;
#32 = EDGE_LOOP ( 'NONE', ( #238, #52, #310, #1 ) ) ;
#33 = EDGE_LOOP ( 'NONE', ( #230, #177 ) ) ;
#34 = AXIS2_PLACEMENT_3D ( 'NONE', #105, #211, #281 ) ;
#35 = DATE_TIME_ROLE ( 'creation_date' ) ;
#36 = ADVANCED_FACE ( 'NONE', ( #141, #91 ), #60, .F. ) ;
#37 = APPROVAL_STATUS ( 'not_yet_approved' ) ;
#38 = DIRECTION ( 'NONE',  ( 0.000000000000000000, 0.000000000000000000, 1.000000000000000000 ) ) ;
#39 = EDGE_CURVE ( 'NONE', #232, #104, #229, .T. ) ;
#40 = FACE_OUTER_BOUND ( 'NONE', #69, .T. ) ;
#41 = DIRECTION ( 'NONE',  ( -1.000000000000000000, -0.000000000000000000, -0.000000000000000000 ) ) ;
#42 = CARTESIAN_POINT ( 'NONE',  ( 3.000000000000000000, 0.000000000000000000, 0.000000000000000000 ) ) ;
#43 = CYLINDRICAL_SURFACE ( 'NONE', #275, 12.69999999999999929 ) ;
#44 = CARTESIAN_POINT ( 'NONE',  ( -3.000000000000000000, 0.000000000000000000, 12.69999999999999929 ) ) ;
#45 = VECTOR ( 'NONE', #327, 1000.000000000000000 ) ;
#46 = VERTEX_POINT ( 'NONE', #167 ) ;
#47 = ORIENTED_EDGE ( 'NONE', *, *, #76, .F. ) ;
#48 = EDGE_LOOP ( 'NONE', ( #186, #291 ) ) ;
#49 = DIRECTION ( 'NONE',  ( 1.000000000000000000, 0.000000000000000000, 0.000000000000000000 ) ) ;
#50 = CARTESIAN_POINT ( 'NONE',  ( -3.000000000000000000, 6.123233995736766282E-16, -5.000000000000000000 ) ) ;
#51 = VERTEX_POINT ( 'NONE', #222 ) ;
#52 = ORIENTED_EDGE ( 'NONE', *, *, #57, .T. ) ;
#53 = EDGE_LOOP ( 'NONE', ( #180, #2, #124, #287 ) ) ;
#54 = PERSON_AND_ORGANIZATION ( #95, #299 ) ;
#55 = DATE_TIME_ROLE ( 'classification_date' ) ;
#56 =( GEOMETRIC_REPRESENTATION_CONTEXT ( 3 ) GLOBAL_UNCERTAINTY_ASSIGNED_CONTEXT ( ( #234 ) ) GLOBAL_UNIT_ASSIGNED_CONTEXT ( ( #170, #277, #282 ) ) REPRESENTATION_CONTEXT ( 'NONE', 'WORKASPACE' ) );
#57 = EDGE_CURVE ( 'NONE', #259, #25, #128, .T. ) ;
#58 = COORDINATED_UNIVERSAL_TIME_OFFSET ( 8, 0, .AHEAD. ) ;
#59 = DIRECTION ( 'NONE',  ( -1.000000000000000000, -0.000000000000000000, -0.000000000000000000 ) ) ;
#60 = PLANE ( 'NONE',  #151 ) ;
#61 = CIRCLE ( 'NONE', #107, 5.000000000000000000 ) ;
#62 = CARTESIAN_POINT ( 'NONE',  ( -3.000000000000000000, 0.000000000000000000, 5.000000000000000000 ) ) ;
#63 = CARTESIAN_POINT ( 'NONE',  ( 3.000000000000000000, 0.000000000000000000, 0.000000000000000000 ) ) ;
#64 = DIRECTION ( 'NONE',  ( -1.000000000000000000, -0.000000000000000000, -0.000000000000000000 ) ) ;
#65 = DIRECTION ( 'NONE',  ( -1.000000000000000000, -0.000000000000000000, -0.000000000000000000 ) ) ;
#66 = ADVANCED_FACE ( 'NONE', ( #89 ), #43, .T. ) ;
#67 = AXIS2_PLACEMENT_3D ( 'NONE', #330, #119, #92 ) ;
#68 = CC_DESIGN_SECURITY_CLASSIFICATION ( #324, ( #216 ) ) ;
#69 = EDGE_LOOP ( 'NONE', ( #75, #97, #47, #106 ) ) ;
#70 = ADVANCED_FACE ( 'NONE', ( #86 ), #195, .F. ) ;
#71 = VERTEX_POINT ( 'NONE', #50 ) ;
#72 = APPROVAL_PERSON_ORGANIZATION ( #160, #23, #271 ) ;
#73 = DIRECTION ( 'NONE',  ( 0.000000000000000000, 0.000000000000000000, 1.000000000000000000 ) ) ;
#74 = CARTESIAN_POINT ( 'NONE',  ( -1.614212418857619014, 6.123233995736767268E-16, -5.000000000000000888 ) ) ;
#75 = ORIENTED_EDGE ( 'NONE', *, *, #193, .T. ) ;
#76 = EDGE_CURVE ( 'NONE', #231, #131, #126, .T. ) ;
#77 = ORIENTED_EDGE ( 'NONE', *, *, #3, .F. ) ;
#78 = CC_DESIGN_PERSON_AND_ORGANIZATION_ASSIGNMENT ( #163, #138, ( #142 ) ) ;
#79 = APPROVAL_ROLE ( '' ) ;
#80 = PERSON_AND_ORGANIZATION ( #95, #299 ) ;
#81 = DATE_AND_TIME ( #192, #122 ) ;
#82 = AXIS2_PLACEMENT_3D ( 'NONE', #165, #59, #223 ) ;
#83 = EDGE_CURVE ( 'NONE', #25, #259, #323, .T. ) ;
#84 = DIRECTION ( 'NONE',  ( -1.000000000000000000, -0.000000000000000000, -0.000000000000000000 ) ) ;
#85 = CARTESIAN_POINT ( 'NONE',  ( -1.614212418857619014, 0.000000000000000000, 12.69999999999999929 ) ) ;
#86 = FACE_OUTER_BOUND ( 'NONE', #32, .T. ) ;
#87 = PLANE ( 'NONE',  #175 ) ;
#88 = APPLICATION_PROTOCOL_DEFINITION ( 'international standard', 'config_control_design', 1994, #256 ) ;
#89 = FACE_OUTER_BOUND ( 'NONE', #236, .T. ) ;
#90 = DIRECTION ( 'NONE',  ( 0.000000000000000000, 0.000000000000000000, 1.000000000000000000 ) ) ;
#91 = FACE_BOUND ( 'NONE', #96, .T. ) ;
#92 = DIRECTION ( 'NONE',  ( 0.000000000000000000, 0.000000000000000000, -1.000000000000000000 ) ) ;
#93 = EDGE_CURVE ( 'NONE', #51, #4, #182, .T. ) ;
#94 = CC_DESIGN_APPROVAL ( #26, ( #228 ) ) ;
#95 = PERSON ( 'UNSPECIFIED', 'UNSPECIFIED', 'UNSPECIFIED', ('UNSPECIFIED'), ('UNSPECIFIED'), ('UNSPECIFIED') ) ;
#96 = EDGE_LOOP ( 'NONE', ( #7, #150 ) ) ;
#97 = ORIENTED_EDGE ( 'NONE', *, *, #157, .T. ) ;
#98 = AXIS2_PLACEMENT_3D ( 'NONE', #63, #306, #171 ) ;
#99 = APPROVAL_PERSON_ORGANIZATION ( #109, #274, #79 ) ;
#100 = APPLICATION_CONTEXT ( 'configuration controlled 3d designs of mechanical parts and assemblies' ) ;
#101 = CARTESIAN_POINT ( 'NONE',  ( 3.000000000000000000, 0.000000000000000000, 12.69999999999999929 ) ) ;
#102 = EDGE_LOOP ( 'NONE', ( #257, #316 ) ) ;
#103 = CC_DESIGN_DATE_AND_TIME_ASSIGNMENT ( #320, #35, ( #228 ) ) ;
#104 = VERTEX_POINT ( 'NONE', #101 ) ;
#105 = CARTESIAN_POINT ( 'NONE',  ( -1.614212418857619014, 0.000000000000000000, 0.000000000000000000 ) ) ;
#106 = ORIENTED_EDGE ( 'NONE', *, *, #325, .F. ) ;
#107 = AXIS2_PLACEMENT_3D ( 'NONE', #261, #288, #315 ) ;
#108 = MECHANICAL_CONTEXT ( 'NONE', #256, 'mechanical' ) ;
#109 = PERSON_AND_ORGANIZATION ( #95, #299 ) ;
#110 = APPROVAL_DATE_TIME ( #11, #23 ) ;
#111 = SECURITY_CLASSIFICATION_LEVEL ( 'unclassified' ) ;
#112 = CALENDAR_DATE ( 2020, 23, 12 ) ;
#113 = VECTOR ( 'NONE', #64, 1000.000000000000000 ) ;
#114 = DIRECTION ( 'NONE',  ( 1.000000000000000000, 0.000000000000000000, 0.000000000000000000 ) ) ;
#115 = DIRECTION ( 'NONE',  ( -1.000000000000000000, -0.000000000000000000, -0.000000000000000000 ) ) ;
#116 = CARTESIAN_POINT ( 'NONE',  ( -3.000000000000000000, 5.000000000000000000, 0.000000000000000000 ) ) ;
#117 = DIRECTION ( 'NONE',  ( -1.000000000000000000, 0.000000000000000000, -0.000000000000000000 ) ) ;
#118 = LINE ( 'NONE', #17, #312 ) ;
#119 = DIRECTION ( 'NONE',  ( 1.000000000000000000, 0.000000000000000000, 0.000000000000000000 ) ) ;
#120 = DIRECTION ( 'NONE',  ( -1.000000000000000000, -0.000000000000000000, -0.000000000000000000 ) ) ;
#121 = AXIS2_PLACEMENT_3D ( 'NONE', #308, #65, #174 ) ;
#122 = LOCAL_TIME ( 9, 21, 47.00000000000000000, #321 ) ;
#123 = DIRECTION ( 'NONE',  ( -1.000000000000000000, -0.000000000000000000, -0.000000000000000000 ) ) ;
#124 = ORIENTED_EDGE ( 'NONE', *, *, #215, .T. ) ;
#125 = EDGE_CURVE ( 'NONE', #46, #4, #61, .T. ) ;
#126 = CIRCLE ( 'NONE', #233, 12.69999999999999929 ) ;
#127 = ORIENTED_EDGE ( 'NONE', *, *, #184, .F. ) ;
#128 = CIRCLE ( 'NONE', #28, 5.000000000000000888 ) ;
#129 = AXIS2_PLACEMENT_3D ( 'NONE', #251, #19, #114 ) ;
#130 = DIRECTION ( 'NONE',  ( 0.000000000000000000, 0.000000000000000000, 1.000000000000000000 ) ) ;
#131 = VERTEX_POINT ( 'NONE', #290 ) ;
#132 = DIRECTION ( 'NONE',  ( -1.000000000000000000, -0.000000000000000000, -0.000000000000000000 ) ) ;
#133 = ORIENTED_EDGE ( 'NONE', *, *, #93, .F. ) ;
#134 = ADVANCED_FACE ( 'NONE', ( #264 ), #27, .F. ) ;
#135 = AXIS2_PLACEMENT_3D ( 'NONE', #152, #313, #73 ) ;
#136 = COORDINATED_UNIVERSAL_TIME_OFFSET ( 8, 0, .AHEAD. ) ;
#137 = APPROVAL_STATUS ( 'not_yet_approved' ) ;
#138 = PERSON_AND_ORGANIZATION_ROLE ( 'design_owner' ) ;
#139 = AXIS2_PLACEMENT_3D ( 'NONE', #309, #194, #217 ) ;
#140 = FACE_OUTER_BOUND ( 'NONE', #102, .T. ) ;
#141 = FACE_OUTER_BOUND ( 'NONE', #33, .T. ) ;
#142 = PRODUCT ( 'Q-QZWP-R4-10-355-M', 'Q-QZWP-R4-10-355-M', '', ( #108 ) ) ;
#143 = DIRECTION ( 'NONE',  ( -1.000000000000000000, -0.000000000000000000, -0.000000000000000000 ) ) ;
#144 = PLANE ( 'NONE',  #67 ) ;
#145 = DIRECTION ( 'NONE',  ( 0.000000000000000000, 0.000000000000000000, 1.000000000000000000 ) ) ;
#146 = ADVANCED_FACE ( 'NONE', ( #8 ), #235, .F. ) ;
#147 = CARTESIAN_POINT ( 'NONE',  ( 3.000000000000000000, 1.555301434917138433E-15, -12.69999999999999929 ) ) ;
#148 = AXIS2_PLACEMENT_3D ( 'NONE', #302, #143, #249 ) ;
#149 = VERTEX_POINT ( 'NONE', #18 ) ;
#150 = ORIENTED_EDGE ( 'NONE', *, *, #294, .T. ) ;
#151 = AXIS2_PLACEMENT_3D ( 'NONE', #248, #117, #15 ) ;
#152 = CARTESIAN_POINT ( 'NONE',  ( -1.614212418857619014, 0.000000000000000000, 0.000000000000000000 ) ) ;
#153 = CIRCLE ( 'NONE', #335, 5.000000000000000000 ) ;
#154 = DIRECTION ( 'NONE',  ( 0.000000000000000000, 0.000000000000000000, -1.000000000000000000 ) ) ;
#155 = EDGE_LOOP ( 'NONE', ( #159, #176, #203, #209 ) ) ;
#156 = ORIENTED_EDGE ( 'NONE', *, *, #125, .F. ) ;
#157 = EDGE_CURVE ( 'NONE', #232, #131, #250, .T. ) ;
#158 = PERSON_AND_ORGANIZATION_ROLE ( 'creator' ) ;
#159 = ORIENTED_EDGE ( 'NONE', *, *, #294, .F. ) ;
#160 = PERSON_AND_ORGANIZATION ( #95, #299 ) ;
#161 = CIRCLE ( 'NONE', #13, 12.69999999999999929 ) ;
#162 = APPROVAL_DATE_TIME ( #243, #274 ) ;
#163 = PERSON_AND_ORGANIZATION ( #95, #299 ) ;
#164 = CC_DESIGN_PERSON_AND_ORGANIZATION_ASSIGNMENT ( #54, #12, ( #228 ) ) ;
#165 = CARTESIAN_POINT ( 'NONE',  ( -1.614212418857619014, 0.000000000000000000, 0.000000000000000000 ) ) ;
#166 = VECTOR ( 'NONE', #132, 1000.000000000000000 ) ;
#167 = CARTESIAN_POINT ( 'NONE',  ( 1.250000000000000444, 0.000000000000000000, 5.000000000000000000 ) ) ;
#168 = DIRECTION ( 'NONE',  ( -1.000000000000000000, -0.000000000000000000, -0.000000000000000000 ) ) ;
#169 = FACE_OUTER_BOUND ( 'NONE', #48, .T. ) ;
#170 =( LENGTH_UNIT ( ) NAMED_UNIT ( * ) SI_UNIT ( .MILLI., .METRE. ) );
#171 = DIRECTION ( 'NONE',  ( 0.000000000000000000, 0.000000000000000000, 1.000000000000000000 ) ) ;
#172 = CC_DESIGN_APPROVAL ( #274, ( #324 ) ) ;
#173 = CARTESIAN_POINT ( 'NONE',  ( -1.614212418857619014, 0.000000000000000000, 5.000000000000000888 ) ) ;
#174 = DIRECTION ( 'NONE',  ( 0.000000000000000000, 0.000000000000000000, 1.000000000000000000 ) ) ;
#175 = AXIS2_PLACEMENT_3D ( 'NONE', #116, #218, #305 ) ;
#176 = ORIENTED_EDGE ( 'NONE', *, *, #93, .T. ) ;
#177 = ORIENTED_EDGE ( 'NONE', *, *, #39, .F. ) ;
#178 = EDGE_LOOP ( 'NONE', ( #156, #269 ) ) ;
#179 = CIRCLE ( 'NONE', #121, 12.69999999999999929 ) ;
#180 = ORIENTED_EDGE ( 'NONE', *, *, #83, .T. ) ;
#181 = DIRECTION ( 'NONE',  ( 0.000000000000000000, 0.000000000000000000, 1.000000000000000000 ) ) ;
#182 = LINE ( 'NONE', #74, #166 ) ;
#183 = ORIENTED_EDGE ( 'NONE', *, *, #157, .F. ) ;
#184 = EDGE_CURVE ( 'NONE', #131, #231, #179, .T. ) ;
#185 = DIRECTION ( 'NONE',  ( 0.000000000000000000, 0.000000000000000000, 1.000000000000000000 ) ) ;
#186 = ORIENTED_EDGE ( 'NONE', *, *, #83, .F. ) ;
#187 = PERSON_AND_ORGANIZATION ( #95, #299 ) ;
#188 = COORDINATED_UNIVERSAL_TIME_OFFSET ( 8, 0, .AHEAD. ) ;
#189 = APPLICATION_PROTOCOL_DEFINITION ( 'international standard', 'config_control_design', 1994, #100 ) ;
#190 = AXIS2_PLACEMENT_3D ( 'NONE', #212, #317, #185 ) ;
#191 = CIRCLE ( 'NONE', #148, 5.000000000000001776 ) ;
#192 = CALENDAR_DATE ( 2020, 23, 12 ) ;
#193 = EDGE_CURVE ( 'NONE', #104, #232, #161, .T. ) ;
#194 = DIRECTION ( 'NONE',  ( -1.000000000000000000, 0.000000000000000000, -0.000000000000000000 ) ) ;
#195 = CYLINDRICAL_SURFACE ( 'NONE', #135, 5.000000000000000888 ) ;
#196 = CARTESIAN_POINT ( 'NONE',  ( -3.000000000000000000, 0.000000000000000000, 0.000000000000000000 ) ) ;
#197 = AXIS2_PLACEMENT_3D ( 'NONE', #237, #207, #130 ) ;
#198 = LINE ( 'NONE', #85, #45 ) ;
#199 = CARTESIAN_POINT ( 'NONE',  ( -1.614212418857619014, 0.000000000000000000, 0.000000000000000000 ) ) ;
#200 = DIRECTION ( 'NONE',  ( 0.000000000000000000, 0.000000000000000000, 1.000000000000000000 ) ) ;
#201 = LOCAL_TIME ( 9, 21, 47.00000000000000000, #188 ) ;
#202 = CARTESIAN_POINT ( 'NONE',  ( -3.000000000000000000, 0.000000000000000000, 0.000000000000000000 ) ) ;
#203 = ORIENTED_EDGE ( 'NONE', *, *, #260, .T. ) ;
#204 = EDGE_LOOP ( 'NONE', ( #311, #266 ) ) ;
#205 = ADVANCED_FACE ( 'NONE', ( #169 ), #144, .F. ) ;
#206 = LOCAL_TIME ( 9, 21, 47.00000000000000000, #136 ) ;
#207 = DIRECTION ( 'NONE',  ( -1.000000000000000000, -0.000000000000000000, -0.000000000000000000 ) ) ;
#208 = DIRECTION ( 'NONE',  ( -1.000000000000000000, -0.000000000000000000, -0.000000000000000000 ) ) ;
#209 = ORIENTED_EDGE ( 'NONE', *, *, #220, .F. ) ;
#210 = PRODUCT_RELATED_PRODUCT_CATEGORY ( 'detail', '', ( #142 ) ) ;
#211 = DIRECTION ( 'NONE',  ( -1.000000000000000000, -0.000000000000000000, -0.000000000000000000 ) ) ;
#212 = CARTESIAN_POINT ( 'NONE',  ( 3.000000000000000000, 0.000000000000000000, 0.000000000000000000 ) ) ;
#213 = PERSON_AND_ORGANIZATION ( #95, #299 ) ;
#214 = APPROVAL_STATUS ( 'not_yet_approved' ) ;
#215 = EDGE_CURVE ( 'NONE', #71, #286, #262, .T. ) ;
#216 = PRODUCT_DEFINITION_FORMATION_WITH_SPECIFIED_SOURCE ( 'ANY', '', #142, .NOT_KNOWN. ) ;
#217 = DIRECTION ( 'NONE',  ( -0.000000000000000000, 0.000000000000000000, 1.000000000000000000 ) ) ;
#218 = DIRECTION ( 'NONE',  ( 1.000000000000000000, 0.000000000000000000, 0.000000000000000000 ) ) ;
#219 = ADVANCED_BREP_SHAPE_REPRESENTATION ( 'Q-QZWP-R4-10-355-M', ( #307, #129 ), #56 ) ;
#220 = EDGE_CURVE ( 'NONE', #149, #46, #22, .T. ) ;
#221 = FACE_OUTER_BOUND ( 'NONE', #53, .T. ) ;
#222 = CARTESIAN_POINT ( 'NONE',  ( 3.000000000000000000, 6.123233995736768255E-16, -5.000000000000001776 ) ) ;
#223 = DIRECTION ( 'NONE',  ( 0.000000000000000000, 0.000000000000000000, 1.000000000000000000 ) ) ;
#224 = APPROVAL_PERSON_ORGANIZATION ( #187, #26, #300 ) ;
#225 = DIRECTION ( 'NONE',  ( -1.000000000000000000, -0.000000000000000000, -0.000000000000000000 ) ) ;
#226 = CYLINDRICAL_SURFACE ( 'NONE', #298, 12.69999999999999929 ) ;
#227 = PLANE ( 'NONE',  #139 ) ;
#228 = PRODUCT_DEFINITION ( 'UNKNOWN', '', #216, #258 ) ;
#229 = CIRCLE ( 'NONE', #98, 12.69999999999999929 ) ;
#230 = ORIENTED_EDGE ( 'NONE', *, *, #193, .F. ) ;
#231 = VERTEX_POINT ( 'NONE', #44 ) ;
#232 = VERTEX_POINT ( 'NONE', #147 ) ;
#233 = AXIS2_PLACEMENT_3D ( 'NONE', #31, #208, #181 ) ;
#234 = UNCERTAINTY_MEASURE_WITH_UNIT (LENGTH_MEASURE( 1.000000000000000082E-05 ), #170, 'distance_accuracy_value', 'NONE');
#235 = CYLINDRICAL_SURFACE ( 'NONE', #34, 5.000000000000000888 ) ;
#236 = EDGE_LOOP ( 'NONE', ( #183, #9, #295, #127 ) ) ;
#237 = CARTESIAN_POINT ( 'NONE',  ( -1.614212418857619014, 0.000000000000000000, 0.000000000000000000 ) ) ;
#238 = ORIENTED_EDGE ( 'NONE', *, *, #289, .F. ) ;
#239 = CC_DESIGN_PERSON_AND_ORGANIZATION_ASSIGNMENT ( #213, #241, ( #216 ) ) ;
#240 = VECTOR ( 'NONE', #123, 1000.000000000000000 ) ;
#241 = PERSON_AND_ORGANIZATION_ROLE ( 'design_supplier' ) ;
#242 = CALENDAR_DATE ( 2020, 23, 12 ) ;
#243 = DATE_AND_TIME ( #297, #201 ) ;
#244 = CALENDAR_DATE ( 2020, 23, 12 ) ;
#245 = VECTOR ( 'NONE', #41, 1000.000000000000000 ) ;
#246 = ADVANCED_FACE ( 'NONE', ( #332 ), #227, .F. ) ;
#247 = CARTESIAN_POINT ( 'NONE',  ( -1.614212418857619014, 6.123233995736767268E-16, -5.000000000000000888 ) ) ;
#248 = CARTESIAN_POINT ( 'NONE',  ( 3.000000000000000000, 12.69999999999999929, 0.000000000000000000 ) ) ;
#249 = DIRECTION ( 'NONE',  ( 0.000000000000000000, 0.000000000000000000, 1.000000000000000000 ) ) ;
#250 = LINE ( 'NONE', #284, #240 ) ;
#251 = CARTESIAN_POINT ( 'NONE',  ( 0.000000000000000000, 0.000000000000000000, 0.000000000000000000 ) ) ;
#252 = CARTESIAN_POINT ( 'NONE',  ( -1.614212418857619014, 0.000000000000000000, 0.000000000000000000 ) ) ;
#253 = CLOSED_SHELL ( 'NONE', ( #16, #285, #146, #246, #134, #70, #319, #66, #36, #205 ) ) ;
#254 = LOCAL_TIME ( 9, 21, 47.00000000000000000, #58 ) ;
#255 = DIRECTION ( 'NONE',  ( -1.000000000000000000, -0.000000000000000000, -0.000000000000000000 ) ) ;
#256 = APPLICATION_CONTEXT ( 'configuration controlled 3d designs of mechanical parts and assemblies' ) ;
#257 = ORIENTED_EDGE ( 'NONE', *, *, #76, .T. ) ;
#258 = DESIGN_CONTEXT ( 'detailed design', #100, 'design' ) ;
#259 = VERTEX_POINT ( 'NONE', #326 ) ;
#260 = EDGE_CURVE ( 'NONE', #4, #46, #30, .T. ) ;
#261 = CARTESIAN_POINT ( 'NONE',  ( 1.250000000000000444, 0.000000000000000000, 0.000000000000000000 ) ) ;
#262 = CIRCLE ( 'NONE', #292, 5.000000000000000000 ) ;
#263 = CC_DESIGN_PERSON_AND_ORGANIZATION_ASSIGNMENT ( #272, #10, ( #324 ) ) ;
#264 = FACE_OUTER_BOUND ( 'NONE', #29, .T. ) ;
#265 = ORIENTED_EDGE ( 'NONE', *, *, #125, .T. ) ;
#266 = ORIENTED_EDGE ( 'NONE', *, *, #215, .F. ) ;
#267 = SHAPE_DEFINITION_REPRESENTATION ( #280, #219 ) ;
#268 = EDGE_CURVE ( 'NONE', #25, #286, #118, .T. ) ;
#269 = ORIENTED_EDGE ( 'NONE', *, *, #260, .F. ) ;
#270 = CC_DESIGN_APPROVAL ( #23, ( #216 ) ) ;
#271 = APPROVAL_ROLE ( '' ) ;
#272 = PERSON_AND_ORGANIZATION ( #95, #299 ) ;
#273 = COORDINATED_UNIVERSAL_TIME_OFFSET ( 8, 0, .AHEAD. ) ;
#274 = APPROVAL ( #137, 'UNSPECIFIED' ) ;
#275 = AXIS2_PLACEMENT_3D ( 'NONE', #252, #20, #331 ) ;
#276 = LINE ( 'NONE', #247, #245 ) ;
#277 =( NAMED_UNIT ( * ) PLANE_ANGLE_UNIT ( ) SI_UNIT ( $, .RADIAN. ) );
#278 = DIRECTION ( 'NONE',  ( 1.000000000000000000, 0.000000000000000000, 0.000000000000000000 ) ) ;
#279 = CYLINDRICAL_SURFACE ( 'NONE', #82, 5.000000000000000888 ) ;
#280 = PRODUCT_DEFINITION_SHAPE ( 'NONE', 'NONE',  #228 ) ;
#281 = DIRECTION ( 'NONE',  ( 0.000000000000000000, 0.000000000000000000, 1.000000000000000000 ) ) ;
#282 =( NAMED_UNIT ( * ) SI_UNIT ( $, .STERADIAN. ) SOLID_ANGLE_UNIT ( ) );
#283 = DIRECTION ( 'NONE',  ( 0.000000000000000000, 0.000000000000000000, -1.000000000000000000 ) ) ;
#284 = CARTESIAN_POINT ( 'NONE',  ( -1.614212418857619014, 1.555301434917138433E-15, -12.69999999999999929 ) ) ;
#285 = ADVANCED_FACE ( 'NONE', ( #221 ), #279, .F. ) ;
#286 = VERTEX_POINT ( 'NONE', #62 ) ;
#287 = ORIENTED_EDGE ( 'NONE', *, *, #268, .F. ) ;
#288 = DIRECTION ( 'NONE',  ( -1.000000000000000000, -0.000000000000000000, -0.000000000000000000 ) ) ;
#289 = EDGE_CURVE ( 'NONE', #259, #71, #276, .T. ) ;
#290 = CARTESIAN_POINT ( 'NONE',  ( -3.000000000000000000, 1.555301434917138433E-15, -12.69999999999999929 ) ) ;
#291 = ORIENTED_EDGE ( 'NONE', *, *, #57, .F. ) ;
#292 = AXIS2_PLACEMENT_3D ( 'NONE', #202, #225, #200 ) ;
#293 = CARTESIAN_POINT ( 'NONE',  ( 1.250000000000000444, 6.123233995736766282E-16, -5.000000000000000000 ) ) ;
#294 = EDGE_CURVE ( 'NONE', #51, #149, #191, .T. ) ;
#295 = ORIENTED_EDGE ( 'NONE', *, *, #325, .T. ) ;
#296 = DATE_AND_TIME ( #244, #21 ) ;
#297 = CALENDAR_DATE ( 2020, 23, 12 ) ;
#298 = AXIS2_PLACEMENT_3D ( 'NONE', #199, #120, #145 ) ;
#299 = ORGANIZATION ( 'UNSPECIFIED', 'UNSPECIFIED', '' ) ;
#300 = APPROVAL_ROLE ( '' ) ;
#301 = CC_DESIGN_PERSON_AND_ORGANIZATION_ASSIGNMENT ( #80, #158, ( #216 ) ) ;
#302 = CARTESIAN_POINT ( 'NONE',  ( 3.000000000000000000, 0.000000000000000000, 0.000000000000000000 ) ) ;
#303 = CARTESIAN_POINT ( 'NONE',  ( -1.250000000000000222, 0.000000000000000000, 5.000000000000000888 ) ) ;
#304 = CARTESIAN_POINT ( 'NONE',  ( 1.250000000000000444, 0.000000000000000000, 0.000000000000000000 ) ) ;
#305 = DIRECTION ( 'NONE',  ( 0.000000000000000000, 0.000000000000000000, -1.000000000000000000 ) ) ;
#306 = DIRECTION ( 'NONE',  ( -1.000000000000000000, -0.000000000000000000, -0.000000000000000000 ) ) ;
#307 = MANIFOLD_SOLID_BREP ( 'Ðý×', #253 ) ;
#308 = CARTESIAN_POINT ( 'NONE',  ( -3.000000000000000000, 0.000000000000000000, 0.000000000000000000 ) ) ;
#309 = CARTESIAN_POINT ( 'NONE',  ( 1.250000000000000222, 5.000000000000000000, 0.000000000000000000 ) ) ;
#310 = ORIENTED_EDGE ( 'NONE', *, *, #268, .T. ) ;
#311 = ORIENTED_EDGE ( 'NONE', *, *, #314, .F. ) ;
#312 = VECTOR ( 'NONE', #115, 1000.000000000000000 ) ;
#313 = DIRECTION ( 'NONE',  ( -1.000000000000000000, -0.000000000000000000, -0.000000000000000000 ) ) ;
#314 = EDGE_CURVE ( 'NONE', #286, #71, #153, .T. ) ;
#315 = DIRECTION ( 'NONE',  ( 0.000000000000000000, 0.000000000000000000, 1.000000000000000000 ) ) ;
#316 = ORIENTED_EDGE ( 'NONE', *, *, #184, .T. ) ;
#317 = DIRECTION ( 'NONE',  ( -1.000000000000000000, -0.000000000000000000, -0.000000000000000000 ) ) ;
#318 = AXIS2_PLACEMENT_3D ( 'NONE', #6, #49, #154 ) ;
#319 = ADVANCED_FACE ( 'NONE', ( #14, #140 ), #87, .F. ) ;
#320 = DATE_AND_TIME ( #112, #254 ) ;
#321 = COORDINATED_UNIVERSAL_TIME_OFFSET ( 8, 0, .AHEAD. ) ;
#322 = APPROVAL_DATE_TIME ( #296, #26 ) ;
#323 = CIRCLE ( 'NONE', #318, 5.000000000000000888 ) ;
#324 = SECURITY_CLASSIFICATION ( '', '', #111 ) ;
#325 = EDGE_CURVE ( 'NONE', #104, #231, #198, .T. ) ;
#326 = CARTESIAN_POINT ( 'NONE',  ( -1.250000000000000222, 6.123233995736767268E-16, -5.000000000000000888 ) ) ;
#327 = DIRECTION ( 'NONE',  ( -1.000000000000000000, -0.000000000000000000, -0.000000000000000000 ) ) ;
#328 = DIRECTION ( 'NONE',  ( 0.000000000000000000, 0.000000000000000000, 1.000000000000000000 ) ) ;
#329 = CARTESIAN_POINT ( 'NONE',  ( -1.250000000000000222, 0.000000000000000000, 0.000000000000000000 ) ) ;
#330 = CARTESIAN_POINT ( 'NONE',  ( -1.250000000000000222, 5.000000000000000000, 0.000000000000000000 ) ) ;
#331 = DIRECTION ( 'NONE',  ( 0.000000000000000000, 0.000000000000000000, 1.000000000000000000 ) ) ;
#332 = FACE_OUTER_BOUND ( 'NONE', #178, .T. ) ;
#333 = CC_DESIGN_DATE_AND_TIME_ASSIGNMENT ( #81, #55, ( #324 ) ) ;
#334 = CIRCLE ( 'NONE', #190, 5.000000000000001776 ) ;
#335 = AXIS2_PLACEMENT_3D ( 'NONE', #196, #84, #38 ) ;
ENDSEC;
END-ISO-10303-21;
